Monday, March 26, 2012

Guitar Tabs For Song "Kannazhaga" From Movie "Three"



Movie     :
Three (3)
SONG     :
Kannazhaga
Tabs by  :
Achu (Aswin Babu)

PRELUDE : (VIOLIN PIECE)
E---7h--4--7--6------7h--4--7--6-----7h--4--7--6----3--6--4--3----
B------------------------------------------------------------------------
G------------------------------------------------------------------------
D------------------------------------------------------------------------
A------------------------------------------------------------------------
E------------------------------------------------------------------------

ALL TABS are in e-String ( 1st string)

Kannazhaga, kaalazhaga,
3---00---55-----3--00--5--3v5(twice) [v-vibrato]

ponnazhaga, pen azhaga
3---00---55-----3--00—5--3

Engaeyo thaedi  sellum    viral      azhaga
3—5—7---8—7---8—7-----5—7—-5—4—3

En kaiygal korthu kollum  vidham  azhaga
3—5—7----8—7---8—7-----5—7—-5—4—3


Uyire     Uyire       unaivida    edhuvum
3--88----6---5--6---3---8-8-8---6---5--6

Uyril       peridhaai        illayadi
3--88----6--5--3s-1------1—3---5-6-5

Azhagae   azhagae    unaivida    edhuvum
3--88--------6---5--6----3---8-8-8---6---5--6

azhagil  azhagaai         illaiyadi
3--88----6--5--3s-1------1—3---5-6-5            [s-SLIDE]


Engaeyo   paarkiraai,  ennaenna   solgiraai
2—7—4----5—-4—2----2—7—4----5—-4—2

Ellaigal     thaandida      maayangal    seikiraai
2—7—4—5----4—5------7----4—2------4----2--0


Unnakul    paarkiren,    ulladhai     solkiren
2—7—4----5—-4—2----2—7—4----5—-4—2

Unnuyir serndhida, naan vazhi paarkiren
2—7—4—5----4—5------7----4—2------4----2--0

Idhazhum      idhazhum      innaiyatume
0-----5—5-----0-----5—5-----0---5---7-8-7

pudhidhaai     vazhigal    illai
0----5—5------0—5—5—-4--3

Immaigal       moodi      aruginil       vaa
0-----5—5-----0—5-5-----0--5-7-8----7----

Idhupol          edhuvum    illai
0----5—5------0—5—5—--4--3

Unnakul    paarkava,    ulladhai     kaetkava
2—7—4----5—-4—2----2—7—4----5—-4—2

Ennuyir    serndhida,   naan    vazhi       sollava
2—7—4—5----4—5------7-------4—2------4----2--0


(same continues….)
Kannazhagae, Perazhagae,
Penazhagae, Ennazhagae

Uyire Uyire unaivida edhuvum
Uyril peridhaai illayadi

9 comments: