Wednesday, June 6, 2012

Guitar Tabs For Song "Nee Partha Vizhigal" From Movie "Three"



Movie     :
Three (3)
SONG     :
Nee Partha Vizhigal
Tabs by  :
Achu (Aswin Babu)

Guitar Piece :

e---5-8—5-8—7--------5-8s-10--8--7---
B---------------8----------------------
G--------------------------------------
D--------------------------------------
A--------------------------------------
E--------------------------------------


e---5-8—5-8—7--------5------5---------
B---------------8---------5-------------
G--------------------------------------
D--------------------------------------
A--------------------------------------
E--------------------------------------


e---5-8—5-8—7--------5-8s-10--8--7---
B---------------8----------------------
G--------------------------------------
D--------------------------------------
A--------------------------------------
E--------------------------------------


e---5-8—5-8—7--------5------5---------
B---------------8---------5-------------
G--------------------------------------
D--------------------------------------
A--------------------------------------
E--------------------------------------


Key Board Piece:

e-----------------------------------------------------------------
B-----8--6--5--------5--------------8--6--5-----5----------------
G--7--------------7-----7--5----7------------7-------------------
D----------------------------------------------------------------
A----------------------------------------------------------------
E-----------------------------------------------------------------


e-----------------------------------------------------------------
B-----8--6--5--------5--------------8--6--5-----5----------------
G--7--------------7-----7--5----7------------7-------------------
D----------------------------------------------------------------
A-----------------------------------------------------------------
E-----------------------------------------------------------------


e--------5--10--8-7-----5—7--5------5--10--8-7-----5--7----------
B--568--------------------------8----------------------------------
G-7----------------------------------------------------------------
D------------------------------------------------------------------
A------------------------------------------------------------------
E------------------------------------------------------------------


e--------5--10--8-7-----5—7--5------5----------------------------
B-------------------------------8------8--8--6---6-5----5---------
G----------------------------------------------------------7------
D-----------------------------------------------------------------
A------------------------------------------------------------------
E------------------------------------------------------------------


 Nee     Partha      Vizhigal
e-5----5--5----8--7------------------------
B--------------------8---------------------


 Nee    Partha       Nodigal
e---------------5--------------------------
B-6----6--6-------8--5--------------------

 Hmm     Kettalum     Varumma
e-------5--5--5---8--7--------------------
B-568-------------------8-----------------

 Ketkatha              Varama
e---------------5-------------------------
B-6--6--6-------8--5---------------------

   Ithu       Pothuma    Ithil      Avasarama
e------------------------------------------
B-5------5--6-5---5-7---5--------5--------
G--7----------------------7-5-7-----------

   Innum   Vendumaa   Athil     Nirainthiduma
e------------------------------------------
B-5------5--6-5----5-7---5----------------
G--7----------------------7-5-------------
D------------------------------7-5--------


   Naan      Partha   Naal   Nam     Vasam     Varuma
e--------------------------------------------------
B-5------5--6----5----5-7---5------------5--------
G------------------------------7----5-7-----------


   Uyir       Thanguma    En      Vizhigalil     Muthal     Vali
e---------------------------------------------------
B-5------5s-6-8-5---5----5---------5---6----6--8---
G--7----------------------7-5-7--------------------


     Nijamadi     Penne       Tholaivinil          Unnai
e-5-8-5-8---7--------5-8-8--10----8--7------------
B--------------8-----------------------------------

    Nizhavinil     Kandaen       Nadamada
e-5-8—5-8—--7---------5------5-------------------
B-----------------8-------5--5---------------------

    Valiyadi      Penne        Varai     Murai          Illai
e-5-8-5-8---7--------5-8----8--10----8--7---------
B--------------8-----------------------------------

   Vathaikirai        Ennai          Methuvaga (slowly)
e-5-8—5-8—---7---------5------5------------------
B-----------------8-------5--5---------------------

Nee Partha Vizhigal (Same Like Previous Lines )
Nee Partha Nodigal
Hmm Kettalum Varumma
Kekatha Varama

    Nizhal Tharum   Ival     Paaravai
e-8—7---8—5---5-8---7-----------------------------
B-----------------------8---------------------------

   Vazhi     Engum         Ini       Thevai
e-8—7---8s-10-5---5-8----7-------------------------
B----------------------------8----------------------

    Uyireeee     Uyireeee   Uyir  Nee    Than        Endral
e-6-8-10----6-8-10--6-8-10---11------10--8--------
B---------------------------------------------------

   Udane          Varuvai      Udal     Sagum           Munnal
e-6-8-10----6-10-8---6-8---10--11------10--8------
B---------------------------------------------------

    Analinnri    Kulir    Veesum      Ithu     Enthan    Sirai    Vasam
e-----------5-----------------------------5--------------
B---5-8-5-----8---6-8v-5-----5---8--5------8---6--5----- (v – Vibrato)
G-7------------------------7-----------------------------

   Ithil     Nee    Matum      Vendum     Penne
e---------------------8---5-----------------
B---5---6---8--6---------------6--8---------
G-7-----------------------------------------

   Ooh oh oh       hmmm hmm hmmm (FILLERS)
e-------------5----------5--------------------
B-----568--------8--6-------------------------
G-7-------------------------------------------

     Nijamadi     Penne       Tholaivinil          Unnai
e-5-8-5-8---7--------5-8-8--10----8--7---
B--------------8--------------------------

    Nizhavinil     Kandaen       Nadamada
e-5-8—5-8—--7---------5------5-----------
B-----------------8-------5--5-------------

    Valiyadi      Penne        Varai     Murai          Illai
e-5-8-5-8---7--------5-8----8--10----8--7---
B--------------8-----------------------------

   Vathaikirai        Ennai          Methuvaga (slowly)
e-5-8—5-8—---7---------5------5----------
B-----------------8-------5--5-------------


(Same like previous lines)
Nee Partha Vizhigal
Nee Partha Nødigal
Hmm Kettalum Varumma
Kekatha Varama
Ithu Pøthuma Ithil Avasarama
Innum Vendumaa Athil Nirainthiduma
Naan Partha Naal Nam Vasam Varuma
Uyir Thanguma

11 comments:

  1. Great job for this nice song.. Could you provide sheet music free for this song?

    ReplyDelete
  2. Awesome Bro !!!!! And thnx a ton.....
    True genius.......

    ReplyDelete
  3. All tabs are awesome..easy to play and learn. .but don't know how to play that s letter which available on the middle of the tabs..so helpfull if anyone teaches that
    thx

    ReplyDelete
  4. Watch this link for more tamil guitar chords and leads
    http://www.youtube.com/user/vjseafarer

    Movie Ko , Song Venpaniye Guitar leads
    http://www.youtube.com/watch?v=0i99UtQH2-Q&feature=c4-overview&list=UUvo7Qz2Ggny7XQKmpgbKqTg

    ReplyDelete
  5. Replies
    1. 5-8s-10--8--7---

      when you strum 5 then 8, then slide your finger from 8th fret to 10th fret, strum it and back to 8th fret and then 7. Hope this helps.

      Delete
  6. i am beginner and enjoyed playing the first guitar piece, nice and easy to play the tabs. Thanks.

    but i tried the same in b string with
    b 12-15-12-15-14
    g 14
    b 12-15-12-15(S)-17-14
    g 14

    something like the above found in other web site, sounds better. Please post more songs with tabs for beginners like me.

    ReplyDelete