Saturday, June 23, 2012

Guitar Tabs For Song "Sara sara saara kathu" From "Vaagai Suuda Va"


Movie     :
Vaagai Suuda Va
SONG     :
Sara Sara Saara Kathu
Tabs by  :
Achu (Aswin Babu)

                             

Chinmayi Tones(Understand notes to play same like song):

e------------7-----7-------------7--8------------7-----8---------
B-8-8-8-8-----8---------8-8--------------8-8--------------------
G------------------------------------------------------------------


Violin Piece:

e-------------------------------------------------------------------
B--8--6-5-----------5--8--------8--6-5--------5---6--5---------
G-----------------7------------------------------------------------


    Sara   Sara     Saara   Kathu    veesum   podhum
e--------------------------------------------------------------
B--------------------5--5---5---------8----8------8----5----
G-5-5----5--5-----------------7-----------------------------

   sir  ah   paarthu   pesum   podhum
e------------7---8------5-------------------------------------
B-8---8--------------------8-------6---5---------------------
G--------------------------------------------------------------

    sarapaambu    pola   nenju       satham   poduthey
e--------------------5--5----5----------5---------5---7---8---------
B-8-8--8---6-------------------8-----------8------------------------
G---------------------------------------------------------------------

    Ithu Ithu,  Ithu   poana  nenju  thaika
e--7-5---7----8-8----8--7-----8--5---5--5-------------------------
B----------------------------------------------------------------------
G---------------------------------------------------------------------

   Otha   paarva paarthu     selu   motha sotha
e-----5-----7--5------------------------8--8----8-7----------------
B--8-----------------8----6-----6-5---------------------------------
G---------------------------------------------------------------------

   Eluthi thaaren  moochu   utpada
e--8-5----5---5-----------5----8--5---------------------------------
B----------------------8---------------8-----------------------------
G--------------------------------------------------------------------

   Tea....pola .. nee...
e---------------------------------------------------------------------
B---7-----7-8-----5-------------------------------------------------
G--------------------------------------------------------------------

   Enna yen aathura....
e---------------------------------------------------------------------
B-----5--7----7--8-5------------------------------------------------
G--7-----------------------------------------------------------------

   Sara    Sara      Saara Kathu    veesum    podhum
e---------------------------------------------------------------------
B--------------------5--5---5---------8----8------8----5-----------
G-5-5----5--5-----------------7------------------------------------

  sir  ah     paarthu   pesum   podhum
e------------7---8------5-------------------------------------------
B-8---8--------------------8-------6---5---------------------------
G--------------------------------------------------------------------

  sarapaambu      pola   nenju     satham    poduthey
e--------------------5--5----5----------5---------5---7---8-------
B-8-8--8---6-------------------8-----------8----------------------
G-------------------------------------------------------------------

   Enga   ooru    pidikutha ?, Enga thaani   inikutha ?
e--------------7---8---8--8------7-8----7--8----5---------------
B--8-6----8-------------------------------------------8--8--------
G-------------------------------------------------------------------

   Suthi varum  kaathula,  suttu          irul       madakutha
e-------------7----8--8-8-----8--12------10-12-----10---8--8------
B--8-6---8------------------------------------------------------------
G----------------------------------------------------------------------

   Mutta  kozhi   pudikava,  moonu padi    samaikava
e--------------7---8---8--8------7-8----7--8----5-------------------
B--8-6----8-------------------------------------------8--8------------
G-----------------------------------------------------------------------

    Elumbathu kadikayil,  enna         konjam   ninaikava
e-------------7----8--8-8----8--12------10-12-----10---8--8-------
B--8-6---8-------------------------------------------------------------
G-----------------------------------------------------------------------

   Kammanj  soru   rusikava,    samacha kaiya konjam rasikava
e-8-----8------7-8----5---------------5---7---8--8--7--8------5--------------
B---------------------------8--8-----8---------------------------------8--8-----
G---------------------------------------------------------------------------------

   Modakathan rasam   vachi,         madaka       thaan    paakuren
e-7--5-7---8------10-----10 10-------10-10--12-----10-12---10--8-8----
B-------------------------------------------------------------------------------
G-------------------------------------------------------------------------------

  Retta dhosa  suttu     vachi ,    Kaava      kaakuren
e-7--5---7--8---10-10---10-10—--8s10s12----10--8-8----------------------
B-------------------------------------------------------------------------------
G-------------------------------------------------------------------------------

   Mukkanna   nongu  thaan   vekkiren
e-10--8--13---13-12---13------13-12-10---------------------------------
B-----------------------------------------------------------------------------
G-----------------------------------------------------------------------------
  Mandu Nee    kagayen         ketkura
e-10--8--13----13-12-13------13-15-10----------------------------------
B-----------------------------------------------------------------------------
G-----------------------------------------------------------------------------


   Sara    Sara      Saara Kathu    veesum     podhum
e------------------------------------------------------------------------------
B--------------------5--5---5---------8----8------8----5--------------------
G-5-5----5--5-----------------7---------------------------------------------

    sir  ah   paarthu   pesum   podhum
e------------7---8------5----------------------------------------------------
B-8---8--------------------8-------6---5------------------------------------
G-----------------------------------------------------------------------------

  sarapaambu      pola   nenju     satham   poduthey
e--------------------5--5----5----------5---------5---7---8----------------
B-8-8--8---6-------------------8-----------8-------------------------------
G----------------------------------------------------------------------------


(SAME AS PREVIOUS LINES)
Pullu kattu vaasama, buthi kulla veesura
Maatu mani sathama, mansakul ketkura
kattavandi oattura, kaiyalavu manasula
Kaiyaeluthu podura kanni ponnu marbula
Moonu naala paakala, ooril endha poovum pookala
Aatu kallu kuliyila urangi povoam poonayai
Thanna vandhu parthuthan kirangi porenya

Meenuku aengura kokku nee....
Kothave theriyala makku nee.

Sara Sara Saara Kathu veesum podhum  ...
Ithu Ithu, Ithu poana nenju thaika ...

Tea....pola .. nee...
Enna yen aathura....

Kaatu malligai poothiriukuthu kadhala kadhala
Vandhu vandhu oadipogum vandukena kaaichala

1 comment:

  1. Guitar hero thala .. you .... sari yena 5 song oda ungala kanum .... waiting for you thala .... post some new songs for your juniors ,.... and help us .... to improve our knowledge .... thalaiva .... la irunthu yaar intha salai oram try panunga .. ila ila guitar tabs post panunga ... i know you will made it thala ..... ur my thala ....

    ReplyDelete