Monday, August 27, 2012

Guitar Tabs For Song "Solitaley Ava Kaadhala" From movie "Kumki"



Movie     :
Kumki
SONG     :
Solitaley Ava Kaadhala
Tabs by  :
Achu (Aswin Babu)
 
  Sollitale         ava    kaadhala
------------------------------6--7----------
-3-1-3-3s8----8--6----8-------------------
---------------------------------------------


Sollum  potheyyyyy eh
--------------------------------------------
-3-1-3-3s8----8s10---6-------------------
--------------------------------------------

   Sugam     thaanala
-------------------6--7--------------------
---8--6-------8----------------------------
--------------------------------------------

Ithu  pol   oru   vaarthaiye
-6-5--6----6-5-- 6---6---5---------------
--------------------------------------------
--------------------------------------------

Yaaridamum    nenju    kekala
-6-6--5--6--------6-5---- 6-8-10---------
--------------------------------------------
--------------------------------------------


  Ini      veroru    vaarthaiye
-6-5-----6-6-5----- 6---6---5-------------
--------------------------------------------
--------------------------------------------
Ketidavum enni paakala
-6-6--5------6-5---8-11-10---------------
--------------------------------------------
--------------------------------------------

Ava    sonna   solle    pothum
---------------------5----------------------
------------8-----8-------6---6------------
-7-5---7-----------------------------------

Athukkueede    illai
--------------------------------------------
-------------------6-8---------------------
--7-5--7---6-------------------------------

Yeathum... Yeathum...
--------------------------------------------
--------------------------------------------
-7-5--7-------7--8--7---------------------

(Repeat the same)
Sollitene iva kaadhala
Sollum pothey
Sugam thaanala
Ithu pol oru vaarthaiye
Yaaridamum solla thonala
Ini veroru vaarthaiye
Pesidavum ennam koodala
Unthan anbu ondre pothum
Athukku eede illai
Yeathum... Yeathum...

Ammaiava sonna sol kekala
--------------------------------------------
----5---------------------------------------
--7---7--5---5--5---4--5--5--5-----------

Appanavan sonna sol kekala
--------------------------------------------
----5---------------------------------------
--7---7--5---5--5---4--5--5--5-----------

Unnodaya solla ketaen
--------------------------------------------
---0-1-1------1-1--2--2-------------------
-2------------------------------------------



Rendu  pera     onna   paarthen
---------------------------------------------
-----0---1-1------1-1-------2--2-----------
-2-------------------------------------------

Manasaye   thoranthu sonna
--1--3-3-3---1--3--3-----3--3--------------
----------------------------------------------
----------------------------------------------

Ellaame kidaikuthu ulagathula
-3-6--1--1--3-3-3----1-3-6-4-3------------
----------------------------------------------
----------------------------------------------

Varuvatha   eduthu    sonna
--1--3-3-3---1--3--3-----3--3--------------
----------------------------------------------
----------------------------------------------
Santhossam mulaikuthu idhayathula
-3-6--1---------1--3-3-3----1-3-6-4-3-----
----------------------------------------------
----------------------------------------------

Ada    sonna   solle    pothum
---------------------5----------------------
------------8-----8-------6---6------------
-7-5---7-----------------------------------

Athukkueede    illai
--------------------------------------------
-------------------6-8---------------------
--7-5--7---6-------------------------------

Yeathum... Yeathum...
--------------------------------------------
--------------------------------------------
-7-5--7-------7--8--7---------------------


(Same as previous lines)
Sollitene iva kaadhala..
Sollitale ava kaadhala..

Ethanayo sollu sollamale
Ullathile undu enbaargale
Sollurathil paathi inbam
Sonna pinne yeathu thunbam

Udhatula irundhu sonna
Thannaale maranthidum nimishathula
Idhayathil irunthu sonna
Pogama nilachidum uthirathula

Ada sonna solle pothum
Athukku eede illai
Yeathum... Yeathum...

Sollitene iva kaadhala
Sollum pothey sugam thaanala
Ithu pol oru vaarthaiye
Yaaridamum solla thonala
Ini veroru vaarthaiye
Pesidavum ennam kudala
Unthan anbu ondre pothum
Atharku eede illai
Yeathum... Yeathum...

5 comments:

  1. nice tnank u soooooooooooooooooo much

    ReplyDelete
  2. kaadhala in first line of sollitale should end with e --5--6-- instead of 6-7 I suppose :)

    ReplyDelete
  3. hi friends.... please help me.......
    Could anybody can send me the notes for " Feel my love " song from kutty. if there means please send to dinesh1to5@gmail.com

    ReplyDelete
  4. send me some notes guitar tabs latest song by sathish ... my id mrsathishcnc@gmail.com

    ReplyDelete